  0
SECTION
  2
HEADER
  9
$ACADVER
  1
AC1009
  9
$INSBASE
 10
521.0532963953263
 20
730.7648394660827
 30
0.0
  9
$EXTMIN
 10
520.2248692705801
 20
729.9364123413365
 30
0.0
  9
$EXTMAX
 10
716.5215534431627
 20
812.962421389701
 30
0.0
  9
$LIMMIN
 10
0.0
 20
0.0
  9
$LIMMAX
 10
420.0
 20
297.0
  9
$ORTHOMODE
 70
     1
  9
$REGENMODE
 70
     0
  9
$FILLMODE
 70
     1
  9
$QTEXTMODE
 70
     0
  9
$MIRRTEXT
 70
     0
  9
$DRAGMODE
 70
     2
  9
$LTSCALE
 40
1.0
  9
$OSMODE
 70
     0
  9
$ATTMODE
 70
     1
  9
$TEXTSIZE
 40
5.0
  9
$TRACEWID
 40
0.05
  9
$TEXTSTYLE
  7
STANDARD
  9
$CLAYER
  8
ITEM_50
  9
$CELTYPE
  6
BYLAYER
  9
$CECOLOR
 62
   256
  9
$DIMSCALE
 40
1.0
  9
$DIMASZ
 40
2.0
  9
$DIMEXO
 40
1.0
  9
$DIMDLI
 40
8.0
  9
$DIMRND
 40
0.0
  9
$DIMDLE
 40
0.0
  9
$DIMEXE
 40
2.0
  9
$DIMTP
 40
0.1
  9
$DIMTM
 40
0.1
  9
$DIMTXT
 40
3.5
  9
$DIMCEN
 40
2.0
  9
$DIMTSZ
 40
0.0
  9
$DIMTOL
 70
     0
  9
$DIMLIM
 70
     0
  9
$DIMTIH
 70
     0
  9
$DIMTOH
 70
     0
  9
$DIMSE1
 70
     0
  9
$DIMSE2
 70
     0
  9
$DIMTAD
 70
     1
  9
$DIMZIN
 70
     8
  9
$DIMBLK
  1

  9
$DIMASO
 70
     0
  9
$DIMSHO
 70
     0
  9
$DIMPOST
  1

  9
$DIMAPOST
  1

  9
$DIMALT
 70
     0
  9
$DIMALTD
 70
     2
  9
$DIMALTF
 40
25.39999999999999
  9
$DIMLFAC
 40
1.0
  9
$DIMTOFL
 70
     1
  9
$DIMTVP
 40
0.0
  9
$DIMTIX
 70
     0
  9
$DIMSOXD
 70
     0
  9
$DIMSAH
 70
     0
  9
$DIMBLK1
  1

  9
$DIMBLK2
  1

  9
$DIMSTYLE
  2
*UNNAMED
  9
$DIMCLRD
 70
   256
  9
$DIMCLRE
 70
   256
  9
$DIMCLRT
 70
     2
  9
$DIMTFAC
 40
0.8
  9
$DIMGAP
 40
2.0
  9
$LUNITS
 70
     2
  9
$LUPREC
 70
     3
  9
$SKETCHINC
 40
0.1
  9
$FILLETRAD
 40
1.0
  9
$AUNITS
 70
     0
  9
$AUPREC
 70
     3
  9
$MENU
  1

  9
$ELEVATION
 40
0.0
  9
$PELEVATION
 40
0.0
  9
$THICKNESS
 40
0.0
  9
$LIMCHECK
 70
     0
  9
$BLIPMODE
 70
     0
  9
$CHAMFERA
 40
1.0
  9
$CHAMFERB
 40
1.0
  9
$SKPOLY
 70
     1
  9
$TDCREATE
 40
2449371.362968402
  9
$TDUPDATE
 40
2449394.634771412
  9
$TDINDWG
 40
0.0060282407
  9
$TDUSRTIMER
 40
0.0060282407
  9
$USRTIMER
 70
     1
  9
$ANGBASE
 50
0.0
  9
$ANGDIR
 70
     0
  9
$PDMODE
 70
     3
  9
$PDSIZE
 40
2.0
  9
$PLINEWID
 40
0.0
  9
$COORDS
 70
     2
  9
$SPLFRAME
 70
     0
  9
$SPLINETYPE
 70
     6
  9
$SPLINESEGS
 70
     8
  9
$ATTDIA
 70
     1
  9
$ATTREQ
 70
     1
  9
$HANDLING
 70
     0
  9
$HANDSEED
  5
91A79
  9
$SURFTAB1
 70
     6
  9
$SURFTAB2
 70
     6
  9
$SURFTYPE
 70
     6
  9
$SURFU
 70
     6
  9
$SURFV
 70
     6
  9
$UCSNAME
  2

  9
$UCSORG
 10
0.0
 20
0.0
 30
0.0
  9
$UCSXDIR
 10
1.0
 20
0.0
 30
0.0
  9
$UCSYDIR
 10
0.0
 20
1.0
 30
0.0
  9
$PUCSNAME
  2

  9
$PUCSORG
 10
0.0
 20
0.0
 30
0.0
  9
$PUCSXDIR
 10
1.0
 20
0.0
 30
0.0
  9
$PUCSYDIR
 10
0.0
 20
1.0
 30
0.0
  9
$USERI1
 70
     0
  9
$USERI2
 70
     3
  9
$USERI3
 70
    15
  9
$USERI4
 70
     0
  9
$USERI5
 70
     0
  9
$USERR1
 40
0.0
  9
$USERR2
 40
1.0
  9
$USERR3
 40
0.0
  9
$USERR4
 40
1.0
  9
$USERR5
 40
0.0
  9
$WORLDVIEW
 70
     1
  9
$SHADEDGE
 70
     3
  9
$SHADEDIF
 70
    70
  9
$TILEMODE
 70
     1
  9
$MAXACTVP
 70
     4
  9
$PINSBASE
 10
0.0
 20
0.0
 30
0.0
  9
$PLIMCHECK
 70
     0
  9
$PEXTMIN
 10
1.000000000000000E+20
 20
1.000000000000000E+20
 30
1.000000000000000E+20
  9
$PEXTMAX
 10
-1.000000000000000E+20
 20
-1.000000000000000E+20
 30
-1.000000000000000E+20
  9
$PLIMMIN
 10
0.0
 20
0.0
  9
$PLIMMAX
 10
12.0
 20
9.0
  9
$UNITMODE
 70
     0
  9
$VISRETAIN
 70
     0
  9
$PLINEGEN
 70
     0
  9
$PSLTSCALE
 70
     0
  9
$TREEDEPTH
 70
  3020
  9
$DWGCODEPAGE
  3
undefined
  0
ENDSEC
  0
SECTION
  2
TABLES
  0
TABLE
  2
VPORT
 70
     2
  0
VPORT
  2
*ACTIVE
 70
     0
 10
0.0
 20
0.0
 11
1.0
 21
1.0
 12
618.7874249192445
 22
807.3784571649168
 13
0.0
 23
0.0
 14
7.0
 24
7.0
 15
0.0
 25
0.0
 16
0.0
 26
0.0
 36
1.0
 17
0.0
 27
0.0
 37
0.0
 40
153.2272353976683
 41
1.275675675675675
 42
50.0
 43
0.0
 44
0.0
 50
0.0
 51
0.0
 71
     0
 72
 10000
 73
     1
 74
     0
 75
     0
 76
     0
 77
     0
 78
     0
  0
ENDTAB
  0
TABLE
  2
LTYPE
 70
     4
  0
LTYPE
  2
AUSGEZOGEN
 70
    64
  3
Solid line
 72
    65
 73
     0
 40
0.0
  0
LTYPE
  2
GEN
 70
    64
  3
----------------------
 72
    65
 73
     2
 40
10000000000.0
 49
0.0
 49
10000000000.0
  0
LTYPE
  2
ITEM-STRICH
 70
     0
  3
 - - - - -
 72
    65
 73
     2
 40
1.5
 49
1.2
 49
-0.3
  0
LTYPE
  2
ITEM-STRICHGR
 70
    64
  3
 -- -- -- -- --
 72
    65
 73
     2
 40
6.25
 49
5.0
 49
-1.25
  0
ENDTAB
  0
TABLE
  2
LAYER
 70
     5
  0
LAYER
  2
0
 70
     0
 62
     7
  6
GEN
  0
LAYER
  2
ITEM_50
 70
    64
 62
     7
  6
AUSGEZOGEN
  0
LAYER
  2
ITEM_25
 70
    64
 62
     3
  6
AUSGEZOGEN
  0
LAYER
  2
ITEM_HILFE
 70
    64
 62
     3
  6
AUSGEZOGEN
  0
LAYER
  2
ITEM_GSTRG
 70
    64
 62
     6
  6
ITEM-STRICHGR
  0
ENDTAB
  0
TABLE
  2
STYLE
 70
     1
  0
STYLE
  2
STANDARD
 70
     0
 40
0.0
 41
1.0
 50
0.0
 71
     0
 42
5.0
  3
iso
  4

  0
ENDTAB
  0
TABLE
  2
VIEW
 70
     0
  0
ENDTAB
  0
TABLE
  2
UCS
 70
     0
  0
ENDTAB
  0
TABLE
  2
APPID
 70
     1
  0
APPID
  2
ACAD
 70
    64
  0
ENDTAB
  0
TABLE
  2
DIMSTYLE
 70
     0
  0
ENDTAB
  0
ENDSEC
  0
SECTION
  2
BLOCKS
  0
ENDSEC
  0
SECTION
  2
ENTITIES
  0
LINE
  8
ITEM_50
 10
679.0215534431549
 20
743.422421389703
 30
0.0
 11
679.021553443154
 21
738.5024213897004
 31
0.0
  0
LINE
  8
ITEM_50
 10
679.021553443154
 20
738.5024213897004
 30
0.0
 11
679.0215534431529
 21
732.9624213896931
 31
0.0
  0
LINE
  8
ITEM_50
 10
679.0215534431556
 20
746.4624213896925
 30
0.0
 11
679.0215534431549
 21
743.422421389703
 31
0.0
  0
LINE
  8
ITEM_50
 10
679.0215534431663
 20
799.4624213896925
 30
0.0
 11
679.0215534431556
 21
746.4624213896925
 31
0.0
  0
LINE
  8
ITEM_50
 10
679.021553443169
 20
812.962421389701
 30
0.0
 11
679.0215534431663
 21
800.0424213896924
 31
0.0
  0
LINE
  8
ITEM_50
 10
679.0215534431663
 20
800.0424213896924
 30
0.0
 11
679.0215534431663
 21
799.4624213896925
 31
0.0
  0
LINE
  8
ITEM_50
 10
710.0215534431529
 20
732.9624213896947
 30
0.0
 11
679.0215534431526
 21
732.9624213897011
 31
0.0
  0
LINE
  8
ITEM_50
 10
679.0215534431526
 20
732.9624213897011
 30
0.0
 11
679.0215534431672
 21
804.1909428643721
 31
0.0
  0
LINE
  8
ITEM_50
 10
710.0215534431561
 20
748.9624213896947
 30
0.0
 11
679.0215534431561
 21
748.9624213897011
 31
0.0
  0
LINE
  8
ITEM_50
 10
679.0215534431576
 20
756.9624213897011
 30
0.0
 11
710.0215534431576
 21
756.9624213896947
 31
0.0
  0
LINE
  8
ITEM_50
 10
710.0215534431656
 20
796.9624213896947
 30
0.0
 11
679.0215534431656
 21
796.9624213897011
 31
0.0
  0
LINE
  8
ITEM_50
 10
679.021553443164
 20
788.9624213897011
 30
0.0
 11
710.021553443164
 21
788.962421389695
 31
0.0
  0
LINE
  8
ITEM_50
 10
710.021553443169
 20
812.9624213896948
 30
0.0
 11
710.0215534431529
 21
732.9624213896947
 31
0.0
  0
ARC
  8
ITEM_50
 10
715.0215718679228
 20
762.9624213896897
 30
0.0
 40
0.5
 50
89.99999999998843
 51
179.9999999999884
  0
ARC
  8
ITEM_50
 10
715.0215718679269
 20
782.9624213896897
 30
0.0
 40
0.5
 50
179.9999999999884
 51
269.99999999999
  0
LINE
  8
ITEM_50
 10
714.5215718679278
 20
787.6426174869714
 30
0.0
 11
714.5215718679219
 21
758.2822252924083
 31
0.0
  0
LINE
  8
ITEM_50
 10
715.5215534431629
 20
782.4624213896897
 30
0.0
 11
715.521553443159
 21
763.4624213896897
 31
0.0
  0
LINE
  8
ITEM_50
 10
716.5215534431592
 20
764.4624213896895
 30
0.0
 11
715.521553443159
 21
763.4624213896897
 31
0.0
  0
LINE
  8
ITEM_50
 10
715.521553443159
 20
763.4624213896897
 30
0.0
 11
715.0215718679228
 21
763.4624213896897
 31
0.0
  0
LINE
  8
ITEM_50
 10
716.5215534431627
 20
781.4624213896895
 30
0.0
 11
715.5215534431629
 21
782.4624213896897
 31
0.0
  0
LINE
  8
ITEM_50
 10
715.5215534431629
 20
782.4624213896897
 30
0.0
 11
715.0215718679266
 21
782.4624213896897
 31
0.0
  0
LINE
  8
ITEM_50
 10
716.5215534431627
 20
781.4624213896895
 30
0.0
 11
716.5215534431592
 21
764.4624213896895
 31
0.0
  0
LINE
  8
ITEM_50
 10
710.0215534431647
 20
791.963337837747
 30
0.0
 11
710.5215718679287
 21
791.963337837747
 31
0.0
  0
LINE
  8
ITEM_50
 10
711.7716482152738
 20
775.4624213896904
 30
0.0
 11
710.0215534431613
 21
775.4624213896909
 31
0.0
  0
LINE
  8
ITEM_50
 10
711.7716482152727
 20
770.4624213896904
 30
0.0
 11
710.0215534431604
 21
770.4624213896909
 31
0.0
  0
LINE
  8
ITEM_50
 10
712.021571867928
 20
788.9624213896904
 30
0.0
 11
712.0215718679214
 21
756.9624213896904
 31
0.0
  0
LINE
  8
ITEM_50
 10
712.021571867928
 20
788.9624213896904
 30
0.0
 11
710.5215718679287
 21
791.963337837747
 31
0.0
  0
LINE
  8
ITEM_50
 10
713.717688003066
 20
788.6231981626624
 30
0.0
 11
712.021571867928
 21
788.9624213896904
 31
0.0
  0
ARC
  8
ITEM_50
 10
713.5215718679278
 20
787.6426174869716
 30
0.0
 40
1.0
 50
359.9999999999884
 51
78.69006752596821
  0
ARC
  8
ITEM_50
 10
713.5215718679219
 20
758.2822252924086
 30
0.0
 40
1.0
 50
281.3099324740086
 51
359.9999999999883
  0
LINE
  8
ITEM_50
 10
713.7176880030597
 20
757.3016446167177
 30
0.0
 11
712.0215718679214
 21
756.9624213896904
 31
0.0
  0
LINE
  8
ITEM_50
 10
712.0215718679214
 20
756.9624213896904
 30
0.0
 11
710.521571867921
 21
753.9615049416345
 31
0.0
  0
LINE
  8
ITEM_50
 10
710.021553443157
 20
753.9615049416345
 30
0.0
 11
710.521571867921
 21
753.9615049416345
 31
0.0
  0
LINE
  8
ITEM_50
 10
710.5215718679287
 20
791.963337837747
 30
0.0
 11
710.5215718679253
 21
775.4624213896906
 31
0.0
  0
LINE
  8
ITEM_50
 10
711.7716482152738
 20
775.4624213896904
 30
0.0
 11
711.7716482152727
 21
770.4624213896904
 31
0.0
  0
LINE
  8
ITEM_50
 10
710.5215718679241
 20
770.4624213896906
 30
0.0
 11
710.521571867921
 21
753.9615049416345
 31
0.0
  0
LINE
  8
ITEM_50
 10
710.0215534431633
 20
812.9593378094806
 30
0.0
 11
679.0215534431633
 21
812.9593378094824
 31
0.0
  0
LINE
  8
ITEM_GSTRG
 10
677.0215534431686
 20
809.4624213896925
 30
0.0
 11
679.0215534431686
 21
809.4624213896925
 31
0.0
  0
LINE
  8
ITEM_GSTRG
 10
677.0215534431533
 20
736.4624213896925
 30
0.0
 11
679.0215534431533
 21
736.4624213896925
 31
0.0
  0
LINE
  8
ITEM_GSTRG
 10
677.0215534431536
 20
737.8877184081973
 30
0.0
 11
679.0215534431683
 21
737.8877184081973
 31
0.0
  0
LINE
  8
ITEM_GSTRG
 10
677.0215534431667
 20
745.0047247065224
 30
0.0
 11
679.0215534431667
 21
745.0047247065224
 31
0.0
  0
LINE
  8
ITEM_GSTRG
 10
677.0215534431658
 20
749.4971876134979
 30
0.0
 11
679.0215534431658
 21
749.4971876134979
 31
0.0
  0
LINE
  8
ITEM_GSTRG
 10
677.0215534431631
 20
762.862163434594
 30
0.0
 11
679.0215534431631
 21
762.862163434594
 31
0.0
  0
LINE
  8
ITEM_GSTRG
 10
677.0215534431631
 20
783.0626793447911
 30
0.0
 11
679.0215534431631
 21
783.0626793447911
 31
0.0
  0
LINE
  8
ITEM_GSTRG
 10
677.0215534431658
 20
796.427655165887
 30
0.0
 11
679.0215534431658
 21
796.427655165887
 31
0.0
  0
LINE
  8
ITEM_GSTRG
 10
677.0215534431667
 20
800.9201180728625
 30
0.0
 11
679.0215534431667
 21
800.9201180728625
 31
0.0
  0
LINE
  8
ITEM_GSTRG
 10
677.0215534431683
 20
808.0371243711879
 30
0.0
 11
679.0215534431683
 21
808.0371243711879
 31
0.0
  0
LINE
  8
ITEM_GSTRG
 10
677.0215534431686
 20
809.4624213896925
 30
0.0
 11
677.0215534431533
 21
736.4624213896925
 31
0.0
  0
LINE
  8
ITEM_GSTRG
 10
676.0215534431536
 20
736.7124213896897
 30
0.0
 11
677.0215534431538
 21
736.7124213896895
 31
0.0
  0
LINE
  8
ITEM_GSTRG
 10
676.0215534431683
 20
809.2124213896895
 30
0.0
 11
677.0215534431683
 21
809.2124213896895
 31
0.0
  0
LINE
  8
ITEM_GSTRG
 10
676.0215534431683
 20
809.2124213896895
 30
0.0
 11
676.0215534431536
 21
736.7124213896895
 31
0.0
  0
LINE
  8
ITEM_GSTRG
 10
666.1350534431674
 20
737.9624213897131
 30
0.0
 11
676.0215534431538
 21
737.9624213897131
 31
0.0
  0
LINE
  8
ITEM_GSTRG
 10
665.5215534431674
 20
738.5759213897131
 30
0.0
 11
666.1350534431674
 21
737.9624213897131
 31
0.0
  0
LINE
  8
ITEM_GSTRG
 10
665.5215534431674
 20
743.3489213897132
 30
0.0
 11
665.5215534431674
 21
738.5759213897131
 31
0.0
  0
LINE
  8
ITEM_GSTRG
 10
666.1350534431674
 20
743.9624213897131
 30
0.0
 11
665.5215534431674
 21
743.3489213897132
 31
0.0
  0
LINE
  8
ITEM_GSTRG
 10
676.021553443155
 20
743.9624213897131
 30
0.0
 11
666.1350534431674
 21
743.9624213897131
 31
0.0
  0
LINE
  8
ITEM_GSTRG
 10
676.0215534431539
 20
738.5759213897131
 30
0.0
 11
665.5215534431674
 21
738.5759213897131
 31
0.0
  0
LINE
  8
ITEM_GSTRG
 10
676.0215534431549
 20
743.3489213897132
 30
0.0
 11
665.5215534431674
 21
743.3489213897132
 31
0.0
  0
LINE
  8
ITEM_GSTRG
 10
666.1350534431674
 20
743.9624213897131
 30
0.0
 11
666.1350534431674
 21
737.9624213897131
 31
0.0
  0
LINE
  8
ITEM_GSTRG
 10
666.1350534431674
 20
801.9624213897131
 30
0.0
 11
676.0215534431669
 21
801.9624213897131
 31
0.0
  0
LINE
  8
ITEM_GSTRG
 10
665.5215534431674
 20
802.5759213897131
 30
0.0
 11
666.1350534431674
 21
801.9624213897131
 31
0.0
  0
LINE
  8
ITEM_GSTRG
 10
665.5215534431674
 20
807.3489213897132
 30
0.0
 11
665.5215534431674
 21
802.5759213897131
 31
0.0
  0
LINE
  8
ITEM_GSTRG
 10
666.1350534431674
 20
807.9624213897131
 30
0.0
 11
665.5215534431674
 21
807.3489213897132
 31
0.0
  0
LINE
  8
ITEM_GSTRG
 10
676.0215534431681
 20
807.9624213897131
 30
0.0
 11
666.1350534431674
 21
807.9624213897131
 31
0.0
  0
LINE
  8
ITEM_GSTRG
 10
676.021553443167
 20
802.5759213897131
 30
0.0
 11
665.5215534431674
 21
802.5759213897131
 31
0.0
  0
LINE
  8
ITEM_GSTRG
 10
676.021553443168
 20
807.3489213897132
 30
0.0
 11
665.5215534431674
 21
807.3489213897132
 31
0.0
  0
LINE
  8
ITEM_GSTRG
 10
666.1350534431674
 20
807.9624213897131
 30
0.0
 11
666.1350534431674
 21
801.9624213897131
 31
0.0
  0
CIRCLE
  8
ITEM_50
 10
561.0532963953222
 20
770.7648394660869
 30
0.0
 40
8.5
  0
CIRCLE
  8
ITEM_50
 10
561.0532963953222
 20
770.7648394660869
 30
0.0
 40
9.5
  0
CIRCLE
  8
ITEM_50
 10
561.0532963953222
 20
770.7648394660869
 30
0.0
 40
13.25
  0
CIRCLE
  8
ITEM_25
 10
561.0532963953222
 20
770.7648394660869
 30
0.0
 40
16.0
  0
LINE
  8
ITEM_50
 10
558.5532963953222
 20
754.2648394660868
 30
0.0
 11
563.5532963953222
 21
754.2648394660868
 31
0.0
  0
LINE
  8
ITEM_50
 10
577.5532963953222
 20
768.2648394660869
 30
0.0
 11
577.5532963953222
 21
773.2648394660869
 31
0.0
  0
LINE
  8
ITEM_50
 10
544.5532963953222
 20
768.2648394660869
 30
0.0
 11
544.5532963953222
 21
773.2648394660869
 31
0.0
  0
LINE
  8
ITEM_50
 10
558.5532963953222
 20
787.2648394660868
 30
0.0
 11
563.5532963953222
 21
787.2648394660868
 31
0.0
  0
CIRCLE
  8
ITEM_50
 10
561.0532963953222
 20
770.7648394660868
 30
0.0
 40
11.5
  0
CIRCLE
  8
ITEM_50
 10
561.0532963953222
 20
770.7648394660868
 30
0.0
 40
7.5
  0
CIRCLE
  8
ITEM_50
 10
596.0600547515052
 20
735.7733656935281
 30
0.0
 40
1.75
  0
CIRCLE
  8
ITEM_50
 10
526.0563821210968
 20
735.7652974255959
 30
0.0
 40
1.75
  0
CIRCLE
  8
ITEM_50
 10
596.0568504519508
 20
805.7631810661163
 30
0.0
 40
1.75
  0
CIRCLE
  8
ITEM_50
 10
526.0531773762324
 20
805.764839466083
 30
0.0
 40
1.75
  0
CIRCLE
  8
ITEM_50
 10
596.0600547515052
 20
735.7733656935281
 30
0.0
 40
2.1
  0
CIRCLE
  8
ITEM_50
 10
526.0563821210968
 20
735.7652974255959
 30
0.0
 40
2.1
  0
CIRCLE
  8
ITEM_50
 10
596.0568504519508
 20
805.7631810661163
 30
0.0
 40
2.1
  0
CIRCLE
  8
ITEM_50
 10
526.0531773762324
 20
805.764839466083
 30
0.0
 40
2.1
  0
ARC
  8
ITEM_50
 10
561.0532963953222
 20
770.7648394660868
 30
0.0
 40
25.0
 50
316.8951674912153
 51
43.1048325087846
  0
ARC
  8
ITEM_50
 10
561.0532963953222
 20
770.7648394660868
 30
0.0
 40
25.0
 50
226.8951674912154
 51
313.1048325087846
  0
ARC
  8
ITEM_50
 10
561.0532963953222
 20
770.7648394660868
 30
0.0
 40
25.0
 50
46.89516749121536
 51
133.1048325087846
  0
CIRCLE
  8
ITEM_50
 10
581.0532963953222
 20
790.7648394660868
 30
0.0
 40
3.399999999999999
  0
CIRCLE
  8
ITEM_50
 10
581.0532963953222
 20
750.7648394660868
 30
0.0
 40
3.399999999999999
  0
CIRCLE
  8
ITEM_50
 10
541.0532963953222
 20
750.7648394660868
 30
0.0
 40
3.399999999999999
  0
CIRCLE
  8
ITEM_50
 10
541.0532963953222
 20
790.7648394660868
 30
0.0
 40
3.399999999999999
  0
CIRCLE
  8
ITEM_50
 10
593.0532963953222
 20
770.7648394660867
 30
0.0
 40
3.25
  0
CIRCLE
  8
ITEM_50
 10
529.0532963953222
 20
770.764839466083
 30
0.0
 40
3.25
  0
ARC
  8
ITEM_50
 10
593.0532963953222
 20
770.7648394660867
 30
0.0
 40
2.46
 50
280.0273408788366
 51
79.97265912116199
  0
ARC
  8
ITEM_50
 10
593.0532963953222
 20
770.7648394660867
 30
0.0
 40
2.46
 50
79.97265912116198
 51
259.9726591211619
  0
ARC
  8
ITEM_50
 10
529.0532963953222
 20
770.764839466083
 30
0.0
 40
2.46
 50
259.972659121598
 51
280.0273408784627
  0
ARC
  8
ITEM_50
 10
529.0532963953222
 20
770.764839466083
 30
0.0
 40
2.46
 50
100.0273408784626
 51
259.972659121598
  0
ARC
  8
ITEM_50
 10
561.0532963953222
 20
770.7648394660868
 30
0.0
 40
25.0
 50
136.8951674912153
 51
223.1048325087845
  0
ARC
  8
ITEM_25
 10
593.0532963953222
 20
770.7648394660867
 30
0.0
 40
2.999999999999995
 50
171.0000000000004
 51
99.00000000000029
  0
ARC
  8
ITEM_50
 10
593.0532963953222
 20
770.7648394660867
 30
0.0
 40
2.46
 50
259.9726591211619
 51
280.0273408788366
  0
ARC
  8
ITEM_25
 10
529.0532963953222
 20
770.764839466083
 30
0.0
 40
2.999999999999995
 50
171.0000000000004
 51
99.00000000000005
  0
ARC
  8
ITEM_50
 10
529.0532963953222
 20
770.764839466083
 30
0.0
 40
2.46
 50
280.0273408784626
 51
100.0273408784627
  0
CIRCLE
  8
ITEM_50
 10
561.0532963953222
 20
770.7648394660868
 30
0.0
 40
23.5
  0
CIRCLE
  8
ITEM_50
 10
561.0532963953222
 20
738.764839466087
 30
0.0
 40
5.0
  0
CIRCLE
  8
ITEM_50
 10
561.0532963953222
 20
802.764839466087
 30
0.0
 40
5.0
  0
POLYLINE
  8
ITEM_50
 66
     1
 10
0.0
 20
0.0
 30
0.0
 70
     1
  0
VERTEX
  8
ITEM_50
 10
601.0532963953343
 20
745.2648394660868
 30
0.0
  0
VERTEX
  8
ITEM_50
 10
601.0532963953343
 20
734.7648394660827
 30
0.0
 42
-0.414213562373095
  0
VERTEX
  8
ITEM_50
 10
597.0532963953343
 20
730.7648394660827
 30
0.0
  0
VERTEX
  8
ITEM_50
 10
586.5532963953303
 20
730.7648394660827
 30
0.0
 42
-0.4142135623730949
  0
VERTEX
  8
ITEM_50
 10
585.0532963953303
 20
732.2648394660827
 30
0.0
  0
VERTEX
  8
ITEM_50
 10
585.0532963953303
 20
734.2648394660827
 30
0.0
 42
-0.4142135623730951
  0
VERTEX
  8
ITEM_50
 10
586.0532963953303
 20
735.2648394660827
 30
0.0
  0
VERTEX
  8
ITEM_50
 10
590.1346763669006
 20
735.2648394660827
 30
0.0
 42
0.612679560717135
  0
VERTEX
  8
ITEM_50
 10
590.9439005323827
 20
736.8523394660826
 30
0.0
 42
0.0759726764060414
  0
VERTEX
  8
ITEM_50
 10
585.6336015039846
 20
742.2243632756058
 30
0.0
 42
0.1612569253945874
  0
VERTEX
  8
ITEM_50
 10
583.2463526865999
 20
743.0148394660827
 30
0.0
  0
VERTEX
  8
ITEM_50
 10
581.0532963953303
 20
743.0148394660827
 30
0.0
  0
VERTEX
  8
ITEM_50
 10
578.8602401040607
 20
743.0148394660827
 30
0.0
 42
0.1612569253945875
  0
VERTEX
  8
ITEM_50
 10
576.472991286676
 20
742.2243632756058
 30
0.0
 42
0.0759726764060416
  0
VERTEX
  8
ITEM_50
 10
571.1626922582778
 20
736.8523394660826
 30
0.0
 42
0.6126795607171353
  0
VERTEX
  8
ITEM_50
 10
571.97191642376
 20
735.2648394660827
 30
0.0
  0
VERTEX
  8
ITEM_50
 10
576.0532963953303
 20
735.2648394660827
 30
0.0
 42
-0.4142135623730948
  0
VERTEX
  8
ITEM_50
 10
577.0532963953303
 20
734.2648394660827
 30
0.0
  0
VERTEX
  8
ITEM_50
 10
577.0532963953303
 20
732.2648394660827
 30
0.0
 42
-0.414213562373095
  0
VERTEX
  8
ITEM_50
 10
575.5532963953303
 20
730.7648394660827
 30
0.0
  0
VERTEX
  8
ITEM_50
 10
546.5532963953303
 20
730.7648394660827
 30
0.0
 42
-0.4142135623730953
  0
VERTEX
  8
ITEM_50
 10
545.0532963953303
 20
732.2648394660827
 30
0.0
  0
VERTEX
  8
ITEM_50
 10
545.0532963953303
 20
734.2648394660827
 30
0.0
 42
-0.4142135623730948
  0
VERTEX
  8
ITEM_50
 10
546.0532963953303
 20
735.2648394660827
 30
0.0
  0
VERTEX
  8
ITEM_50
 10
550.1346763669006
 20
735.2648394660827
 30
0.0
 42
0.612679560717135
  0
VERTEX
  8
ITEM_50
 10
550.9439005323827
 20
736.8523394660826
 30
0.0
 42
0.0759726764060416
  0
VERTEX
  8
ITEM_50
 10
545.6336015039846
 20
742.2243632756058
 30
0.0
 42
0.1612569253945875
  0
VERTEX
  8
ITEM_50
 10
543.2463526865999
 20
743.0148394660827
 30
0.0
  0
VERTEX
  8
ITEM_50
 10
541.0532963953303
 20
743.0148394660827
 30
0.0
  0
VERTEX
  8
ITEM_50
 10
538.8602401040607
 20
743.0148394660827
 30
0.0
 42
0.1612569253945874
  0
VERTEX
  8
ITEM_50
 10
536.472991286676
 20
742.2243632756058
 30
0.0
 42
0.0759726764060414
  0
VERTEX
  8
ITEM_50
 10
531.1626922582778
 20
736.8523394660826
 30
0.0
 42
0.6126795607171353
  0
VERTEX
  8
ITEM_50
 10
531.97191642376
 20
735.2648394660827
 30
0.0
  0
VERTEX
  8
ITEM_50
 10
536.0532963953303
 20
735.2648394660827
 30
0.0
 42
-0.414213562373095
  0
VERTEX
  8
ITEM_50
 10
537.0532963953303
 20
734.2648394660827
 30
0.0
  0
VERTEX
  8
ITEM_50
 10
537.0532963953303
 20
732.2648394660827
 30
0.0
 42
-0.4142135623730948
  0
VERTEX
  8
ITEM_50
 10
535.5532963953303
 20
730.7648394660827
 30
0.0
  0
VERTEX
  8
ITEM_50
 10
525.0532963953263
 20
730.7648394660827
 30
0.0
 42
-0.4142135623730951
  0
VERTEX
  8
ITEM_50
 10
521.0532963953263
 20
734.7648394660827
 30
0.0
  0
VERTEX
  8
ITEM_50
 10
521.0532963953263
 20
745.2648394660868
 30
0.0
 42
-0.414213562373095
  0
VERTEX
  8
ITEM_50
 10
522.5532963953263
 20
746.7648394660868
 30
0.0
  0
VERTEX
  8
ITEM_50
 10
524.5532963953262
 20
746.7648394660868
 30
0.0
 42
-0.414213562373095
  0
VERTEX
  8
ITEM_50
 10
525.5532963953262
 20
745.7648394660868
 30
0.0
  0
VERTEX
  8
ITEM_50
 10
525.5532963953263
 20
741.6834594945164
 30
0.0
 42
0.6126795607171368
  0
VERTEX
  8
ITEM_50
 10
527.1407963953261
 20
740.8742353290344
 30
0.0
 42
0.0759726764060416
  0
VERTEX
  8
ITEM_50
 10
532.5128202048493
 20
746.1845343574325
 30
0.0
 42
0.1612569253945871
  0
VERTEX
  8
ITEM_50
 10
533.3032963953263
 20
748.5717831748172
 30
0.0
  0
VERTEX
  8
ITEM_50
 10
533.3032963953263
 20
750.7648394660868
 30
0.0
  0
VERTEX
  8
ITEM_50
 10
533.3032963953263
 20
752.9578957573564
 30
0.0
 42
0.1612569253945878
  0
VERTEX
  8
ITEM_50
 10
532.5128202048474
 20
755.3451445747377
 30
0.0
 42
0.0759726764060418
  0
VERTEX
  8
ITEM_50
 10
527.1407963953261
 20
760.6554436031392
 30
0.0
 42
0.6126795607171353
  0
VERTEX
  8
ITEM_50
 10
525.5532963953263
 20
759.8462194376572
 30
0.0
  0
VERTEX
  8
ITEM_50
 10
525.5532963953263
 20
755.7648394660868
 30
0.0
 42
-0.4142135623730945
  0
VERTEX
  8
ITEM_50
 10
524.5532963953263
 20
754.7648394660868
 30
0.0
  0
VERTEX
  8
ITEM_50
 10
522.5532963953263
 20
754.7648394660868
 30
0.0
 42
-0.4142135623730953
  0
VERTEX
  8
ITEM_50
 10
521.0532963953263
 20
756.2648394660868
 30
0.0
  0
VERTEX
  8
ITEM_50
 10
521.0532963953263
 20
785.2648394660868
 30
0.0
 42
-0.414213562373095
  0
VERTEX
  8
ITEM_50
 10
522.5532963953263
 20
786.7648394660868
 30
0.0
  0
VERTEX
  8
ITEM_50
 10
524.5532963953263
 20
786.7648394660868
 30
0.0
 42
-0.4142135623730947
  0
VERTEX
  8
ITEM_50
 10
525.5532963953263
 20
785.7648394660868
 30
0.0
  0
VERTEX
  8
ITEM_50
 10
525.5532963953263
 20
781.6834594945164
 30
0.0
 42
0.6126795607171356
  0
VERTEX
  8
ITEM_50
 10
527.1407963953261
 20
780.8742353290344
 30
0.0
 42
0.0759726764060416
  0
VERTEX
  8
ITEM_50
 10
532.5128202048474
 20
786.1845343574359
 30
0.0
 42
0.1612569253945876
  0
VERTEX
  8
ITEM_50
 10
533.3032963953263
 20
788.5717831748172
 30
0.0
  0
VERTEX
  8
ITEM_50
 10
533.3032963953263
 20
790.7648394660868
 30
0.0
  0
VERTEX
  8
ITEM_50
 10
533.3032963953263
 20
792.9578957573564
 30
0.0
 42
0.1612569253945872
  0
VERTEX
  8
ITEM_50
 10
532.5128202048493
 20
795.3451445747411
 30
0.0
 42
0.0759726764060417
  0
VERTEX
  8
ITEM_50
 10
527.1407963953261
 20
800.6554436031392
 30
0.0
 42
0.6126795607171365
  0
VERTEX
  8
ITEM_50
 10
525.5532963953263
 20
799.8462194376572
 30
0.0
  0
VERTEX
  8
ITEM_50
 10
525.5532963953262
 20
795.7648394660868
 30
0.0
 42
-0.4142135623730948
  0
VERTEX
  8
ITEM_50
 10
524.5532963953262
 20
794.7648394660868
 30
0.0
  0
VERTEX
  8
ITEM_50
 10
522.5532963953263
 20
794.7648394660868
 30
0.0
 42
-0.4142135623730953
  0
VERTEX
  8
ITEM_50
 10
521.0532963953263
 20
796.2648394660868
 30
0.0
  0
VERTEX
  8
ITEM_50
 10
521.0532963953263
 20
806.7648394660909
 30
0.0
 42
-0.414213562373095
  0
VERTEX
  8
ITEM_50
 10
525.0532963953263
 20
810.7648394660909
 30
0.0
  0
VERTEX
  8
ITEM_50
 10
535.5532963953303
 20
810.7648394660909
 30
0.0
 42
-0.414213562373095
  0
VERTEX
  8
ITEM_50
 10
537.0532963953303
 20
809.2648394660909
 30
0.0
  0
VERTEX
  8
ITEM_50
 10
537.0532963953303
 20
807.2648394660909
 30
0.0
 42
-0.4142135623730948
  0
VERTEX
  8
ITEM_50
 10
536.0532963953303
 20
806.2648394660909
 30
0.0
  0
VERTEX
  8
ITEM_50
 10
531.97191642376
 20
806.2648394660909
 30
0.0
 42
0.6126795607171351
  0
VERTEX
  8
ITEM_50
 10
531.1626922582778
 20
804.677339466091
 30
0.0
 42
0.0759726764060413
  0
VERTEX
  8
ITEM_50
 10
536.472991286676
 20
799.3053156565677
 30
0.0
 42
0.1612569253945876
  0
VERTEX
  8
ITEM_50
 10
538.8602401040607
 20
798.5148394660909
 30
0.0
  0
VERTEX
  8
ITEM_50
 10
541.0532963953303
 20
798.5148394660909
 30
0.0
  0
VERTEX
  8
ITEM_50
 10
543.2463526865999
 20
798.5148394660909
 30
0.0
 42
0.1612569253945876
  0
VERTEX
  8
ITEM_50
 10
545.6336015039846
 20
799.3053156565679
 30
0.0
 42
0.0759726764060414
  0
VERTEX
  8
ITEM_50
 10
550.9439005323827
 20
804.677339466091
 30
0.0
 42
0.612679560717135
  0
VERTEX
  8
ITEM_50
 10
550.1346763669006
 20
806.2648394660909
 30
0.0
  0
VERTEX
  8
ITEM_50
 10
546.0532963953303
 20
806.2648394660909
 30
0.0
 42
-0.414213562373095
  0
VERTEX
  8
ITEM_50
 10
545.0532963953303
 20
807.2648394660909
 30
0.0
  0
VERTEX
  8
ITEM_50
 10
545.0532963953303
 20
809.2648394660909
 30
0.0
 42
-0.414213562373095
  0
VERTEX
  8
ITEM_50
 10
546.5532963953303
 20
810.7648394660909
 30
0.0
  0
VERTEX
  8
ITEM_50
 10
575.5532963953303
 20
810.7648394660909
 30
0.0
 42
-0.414213562373095
  0
VERTEX
  8
ITEM_50
 10
577.0532963953303
 20
809.2648394660909
 30
0.0
  0
VERTEX
  8
ITEM_50
 10
577.0532963953303
 20
807.2648394660909
 30
0.0
 42
-0.4142135623730948
  0
VERTEX
  8
ITEM_50
 10
576.0532963953303
 20
806.2648394660909
 30
0.0
  0
VERTEX
  8
ITEM_50
 10
571.97191642376
 20
806.2648394660909
 30
0.0
 42
0.6126795607171353
  0
VERTEX
  8
ITEM_50
 10
571.1626922582778
 20
804.677339466091
 30
0.0
 42
0.0759726764060415
  0
VERTEX
  8
ITEM_50
 10
576.472991286676
 20
799.3053156565677
 30
0.0
 42
0.1612569253945876
  0
VERTEX
  8
ITEM_50
 10
578.8602401040607
 20
798.5148394660909
 30
0.0
  0
VERTEX
  8
ITEM_50
 10
581.0532963953303
 20
798.5148394660909
 30
0.0
  0
VERTEX
  8
ITEM_50
 10
583.2463526865999
 20
798.5148394660909
 30
0.0
 42
0.1612569253945874
  0
VERTEX
  8
ITEM_50
 10
585.6336015039846
 20
799.3053156565679
 30
0.0
 42
0.0759726764060414
  0
VERTEX
  8
ITEM_50
 10
590.9439005323827
 20
804.677339466091
 30
0.0
 42
0.612679560717135
  0
VERTEX
  8
ITEM_50
 10
590.1346763669006
 20
806.2648394660909
 30
0.0
  0
VERTEX
  8
ITEM_50
 10
586.0532963953303
 20
806.2648394660909
 30
0.0
 42
-0.414213562373095
  0
VERTEX
  8
ITEM_50
 10
585.0532963953303
 20
807.2648394660909
 30
0.0
  0
VERTEX
  8
ITEM_50
 10
585.0532963953303
 20
809.2648394660909
 30
0.0
 42
-0.414213562373095
  0
VERTEX
  8
ITEM_50
 10
586.5532963953303
 20
810.7648394660909
 30
0.0
  0
VERTEX
  8
ITEM_50
 10
597.0532963953343
 20
810.7648394660909
 30
0.0
 42
-0.4142135623730951
  0
VERTEX
  8
ITEM_50
 10
601.0532963953343
 20
806.7648394660909
 30
0.0
  0
VERTEX
  8
ITEM_50
 10
601.0532963953343
 20
796.2648394660868
 30
0.0
 42
-0.414213562373095
  0
VERTEX
  8
ITEM_50
 10
599.5532963953343
 20
794.7648394660868
 30
0.0
  0
VERTEX
  8
ITEM_50
 10
597.5532963953344
 20
794.7648394660868
 30
0.0
 42
-0.414213562373095
  0
VERTEX
  8
ITEM_50
 10
596.5532963953344
 20
795.7648394660868
 30
0.0
  0
VERTEX
  8
ITEM_50
 10
596.5532963953343
 20
799.8462194376572
 30
0.0
 42
0.6126795607171365
  0
VERTEX
  8
ITEM_50
 10
594.9657963953345
 20
800.6554436031394
 30
0.0
 42
0.0759726764060417
  0
VERTEX
  8
ITEM_50
 10
589.5937725858112
 20
795.3451445747411
 30
0.0
 42
0.1612569253945872
  0
VERTEX
  8
ITEM_50
 10
588.8032963953343
 20
792.9578957573564
 30
0.0
  0
VERTEX
  8
ITEM_50
 10
588.8032963953343
 20
790.7648394660868
 30
0.0
  0
VERTEX
  8
ITEM_50
 10
588.8032963953343
 20
788.5717831748172
 30
0.0
 42
0.1612569253945877
  0
VERTEX
  8
ITEM_50
 10
589.5937725858112
 20
786.1845343574325
 30
0.0
 42
0.0759726764060417
  0
VERTEX
  8
ITEM_50
 10
594.9657963953385
 20
780.8742353290399
 30
0.0
 42
0.6126795607171353
  0
VERTEX
  8
ITEM_50
 10
596.5532963953343
 20
781.6834594945164
 30
0.0
  0
VERTEX
  8
ITEM_50
 10
596.5532963953343
 20
785.7648394660868
 30
0.0
 42
-0.4142135623730948
  0
VERTEX
  8
ITEM_50
 10
597.5532963953343
 20
786.7648394660868
 30
0.0
  0
VERTEX
  8
ITEM_50
 10
599.5532963953343
 20
786.7648394660868
 30
0.0
 42
-0.414213562373095
  0
VERTEX
  8
ITEM_50
 10
601.0532963953343
 20
785.2648394660868
 30
0.0
  0
VERTEX
  8
ITEM_50
 10
601.0532963953343
 20
756.2648394660868
 30
0.0
 42
-0.414213562373095
  0
VERTEX
  8
ITEM_50
 10
599.5532963953343
 20
754.7648394660868
 30
0.0
  0
VERTEX
  8
ITEM_50
 10
597.5532963953343
 20
754.7648394660868
 30
0.0
 42
-0.4142135623730946
  0
VERTEX
  8
ITEM_50
 10
596.5532963953343
 20
755.7648394660868
 30
0.0
  0
VERTEX
  8
ITEM_50
 10
596.5532963953343
 20
759.8462194376572
 30
0.0
 42
0.6126795607171353
  0
VERTEX
  8
ITEM_50
 10
594.9657963953345
 20
760.6554436031392
 30
0.0
 42
0.0759726764060418
  0
VERTEX
  8
ITEM_50
 10
589.5937725858132
 20
755.3451445747377
 30
0.0
 42
0.1612569253945878
  0
VERTEX
  8
ITEM_50
 10
588.8032963953343
 20
752.9578957573564
 30
0.0
  0
VERTEX
  8
ITEM_50
 10
588.8032963953343
 20
750.7648394660868
 30
0.0
  0
VERTEX
  8
ITEM_50
 10
588.8032963953343
 20
748.5717831748172
 30
0.0
 42
0.1612569253945872
  0
VERTEX
  8
ITEM_50
 10
589.5937725858112
 20
746.1845343574325
 30
0.0
 42
0.0759726764060416
  0
VERTEX
  8
ITEM_50
 10
594.9657963953345
 20
740.8742353290344
 30
0.0
 42
0.6126795607171365
  0
VERTEX
  8
ITEM_50
 10
596.5532963953343
 20
741.6834594945164
 30
0.0
  0
VERTEX
  8
ITEM_50
 10
596.5532963953344
 20
745.7648394660868
 30
0.0
 42
-0.4142135623730951
  0
VERTEX
  8
ITEM_50
 10
597.5532963953344
 20
746.7648394660868
 30
0.0
  0
VERTEX
  8
ITEM_50
 10
599.5532963953343
 20
746.7648394660868
 30
0.0
 42
-0.4142135623730951
  0
SEQEND
  8
ITEM_50
  0
ARC
  8
ITEM_50
 10
561.0532963953222
 20
770.7648394660869
 30
0.0
 40
5.499999999847905
 50
45.82662013523718
 51
74.17337987011202
  0
ARC
  8
ITEM_50
 10
561.0532963953231
 20
770.7648394660869
 30
0.0
 40
5.499999999847905
 50
345.8266201352371
 51
14.17337987011206
  0
ARC
  8
ITEM_50
 10
561.0532963953227
 20
770.7648394660869
 30
0.0
 40
5.499999999847905
 50
285.8266201352372
 51
314.173379870112
  0
ARC
  8
ITEM_50
 10
561.0532963953222
 20
770.7648394660869
 30
0.0
 40
5.499999999847905
 50
225.8266201352372
 51
254.173379870112
  0
ARC
  8
ITEM_50
 10
561.053296395324
 20
770.7648394660869
 30
0.0
 40
5.499999999847905
 50
165.8266201352372
 51
194.173379870112
  0
ARC
  8
ITEM_50
 10
561.0532963953231
 20
770.7648394660869
 30
0.0
 40
5.499999999847905
 50
105.8266201352372
 51
134.173379870112
  0
LINE
  8
ITEM_50
 10
566.3858720900919
 20
772.1115526716772
 30
0.0
 11
567.7246560363113
 21
772.8844999434137
 31
0.0
  0
ARC
  8
ITEM_50
 10
561.0532963953222
 20
770.7648394660869
 30
0.0
 40
6.999999999898073
 50
17.62637488587846
 51
42.37362511865772
  0
LINE
  8
ITEM_50
 10
564.885872089941
 20
774.7096288829421
 30
0.0
 11
566.224656036193
 21
775.4825761546986
 31
0.0
  0
LINE
  8
ITEM_50
 10
564.8858720903612
 20
766.8200500496064
 30
0.0
 11
566.2246560365805
 21
766.04710277787
 31
0.0
  0
ARC
  8
ITEM_50
 10
561.0532963953231
 20
770.7648394660869
 30
0.0
 40
6.999999999898073
 50
317.6263748858785
 51
342.3736251186577
  0
LINE
  8
ITEM_50
 10
566.3858720902084
 20
769.4181262610478
 30
0.0
 11
567.7246560364623
 21
768.6451789892913
 31
0.0
  0
LINE
  8
ITEM_50
 10
559.5532963955905
 20
765.4733368440143
 30
0.0
 11
559.5532963955905
 21
763.9274423005414
 31
0.0
  0
ARC
  8
ITEM_50
 10
561.0532963953227
 20
770.7648394660869
 30
0.0
 40
6.999999999898073
 50
257.6263748858784
 51
282.3736251186577
  0
LINE
  8
ITEM_50
 10
562.5532963955905
 20
765.4733368441908
 30
0.0
 11
562.5532963955905
 21
763.9274423006796
 31
0.0
  0
LINE
  8
ITEM_50
 10
555.7207207005507
 20
769.4181262604948
 30
0.0
 11
554.3819367543313
 21
768.6451789887584
 31
0.0
  0
ARC
  8
ITEM_50
 10
561.0532963953222
 20
770.7648394660869
 30
0.0
 40
6.999999999898073
 50
197.6263748858785
 51
222.3736251186577
  0
LINE
  8
ITEM_50
 10
557.2207207007035
 20
766.8200500492299
 30
0.0
 11
555.8819367544496
 21
766.0471027774734
 31
0.0
  0
LINE
  8
ITEM_50
 10
557.2207207002833
 20
774.7096288825656
 30
0.0
 11
555.8819367540639
 21
775.4825761543021
 31
0.0
  0
ARC
  8
ITEM_50
 10
561.053296395324
 20
770.7648394660869
 30
0.0
 40
6.999999999898073
 50
137.6263748858785
 51
162.3736251186577
  0
LINE
  8
ITEM_50
 10
555.7207207004342
 20
772.1115526711242
 30
0.0
 11
554.3819367541822
 21
772.8844999428807
 31
0.0
  0
ARC
  8
ITEM_50
 10
561.0532963953231
 20
770.7648394660869
 30
0.0
 40
6.999999999898073
 50
77.62637488587851
 51
102.3736251186577
  0
LINE
  8
ITEM_50
 10
562.5532963950539
 20
776.0563420881559
 30
0.0
 11
562.5532963950539
 21
777.6022366316288
 31
0.0
  0
LINE
  8
ITEM_50
 10
559.5532963950539
 20
776.0563420879813
 30
0.0
 11
559.5532963950539
 21
777.6022366314924
 31
0.0
  0
ARC
  8
ITEM_50
 10
561.0532963953222
 20
770.7648394660869
 30
0.0
 40
19.0
 50
277.5608431766725
 51
290.3956900692811
  0
LINE
  8
ITEM_50
 10
577.5532963953222
 20
773.2648394660869
 30
0.0
 11
579.8881045971581
 21
773.2648394660869
 31
0.0
  0
LINE
  8
ITEM_50
 10
577.5532963953222
 20
768.2648394660869
 30
0.0
 11
579.8881045971581
 21
768.2648394660869
 31
0.0
  0
LINE
  8
ITEM_50
 10
544.5532963953222
 20
773.2648394660869
 30
0.0
 11
542.2184881934865
 21
773.2648394660869
 31
0.0
  0
LINE
  8
ITEM_50
 10
544.5532963953222
 20
768.2648394660869
 30
0.0
 11
542.2184881934865
 21
768.2648394660869
 31
0.0
  0
ARC
  8
ITEM_50
 10
561.0532963953222
 20
770.7648394660869
 30
0.0
 40
19.0
 50
97.56084317667288
 51
172.4391568233274
  0
LINE
  8
ITEM_50
 10
558.5532963953222
 20
787.2648394660868
 30
0.0
 11
558.5532963953222
 21
789.5996476679227
 31
0.0
  0
LINE
  8
ITEM_50
 10
563.5532963953222
 20
787.2648394660868
 30
0.0
 11
563.5532963953222
 21
789.5996476679227
 31
0.0
  0
LINE
  8
ITEM_50
 10
558.5532963953222
 20
754.2648394660868
 30
0.0
 11
558.5532963953222
 21
751.9300312642511
 31
0.0
  0
LINE
  8
ITEM_50
 10
563.5532963953222
 20
754.2648394660868
 30
0.0
 11
563.5532963953222
 21
751.9300312642511
 31
0.0
  0
ARC
  8
ITEM_50
 10
561.0532963953222
 20
770.7648394660869
 30
0.0
 40
19.0
 50
7.560843176672397
 51
82.43915682332746
  0
ARC
  8
ITEM_50
 10
561.0532963953222
 20
770.7648394660869
 30
0.0
 40
19.0
 50
187.5608431766725
 51
239.3177522979787
  0
CIRCLE
  8
ITEM_50
 10
561.0532963953222
 20
770.7648394660868
 30
0.0
 40
11.58
  0
ARC
  8
ITEM_50
 10
561.0532963953222
 20
770.7648394660869
 30
0.0
 40
19.0
 50
239.3177522979787
 51
249.6043099307188
  0
ARC
  8
ITEM_50
 10
561.0532963953222
 20
770.7648394660869
 30
0.0
 40
19.0
 50
249.6043099307188
 51
262.439156823327
  0
ARC
  8
ITEM_50
 10
561.0532963953222
 20
770.7648394660869
 30
0.0
 40
19.0
 50
290.3956900692811
 51
300.6822477020207
  0
ARC
  8
ITEM_50
 10
561.0532963953222
 20
770.7648394660869
 30
0.0
 40
19.0
 50
300.6822477020207
 51
352.4391568233272
  0
LINE
  8
ITEM_GSTRG
 10
675.5201465600014
 20
788.4618592985655
 30
0.0
 11
662.183419797097
 21
788.4618592985671
 31
0.0
  0
LINE
  8
ITEM_GSTRG
 10
675.5201465599975
 20
757.4630541954331
 30
0.0
 11
662.1822571902023
 21
757.4630541954347
 31
0.0
  0
LINE
  8
ITEM_GSTRG
 10
656.1208943341712
 20
785.7119299395037
 30
0.0
 11
656.1208943341682
 21
760.2129128399224
 31
0.0
  0
LINE
  8
ITEM_GSTRG
 10
656.1208943341712
 20
784.9616585905771
 30
0.0
 11
662.183419797097
 21
788.4618592985671
 31
0.0
  0
LINE
  8
ITEM_GSTRG
 10
656.1208943341682
 20
760.9625836720229
 30
0.0
 11
662.1834197970931
 21
757.4623829640322
 31
0.0
  0
ARC
  8
ITEM_GSTRG
 10
675.5201465596958
 20
787.4615622323854
 30
0.0
 40
0.9999614552478491
 50
59.90559770855254
 51
89.99999999999315
  0
ARC
  8
ITEM_GSTRG
 10
675.5201465596924
 20
758.4626800302098
 30
0.0
 40
0.999961455247062
 50
269.9999999999931
 51
300.0944022912869
  0
LINE
  8
ITEM_GSTRG
 10
662.1822571902023
 20
757.4630541954347
 30
0.0
 11
662.183419797097
 21
788.4618592985671
 31
0.0
  0
LINE
  8
ITEM_GSTRG
 10
654.1209714237372
 20
785.7119299395039
 30
0.0
 11
654.1209714237343
 21
760.2129128399226
 31
0.0
  0
LINE
  8
ITEM_GSTRG
 10
654.1209714237343
 20
760.2129128399226
 30
0.0
 11
656.1208943341682
 21
760.2129128399224
 31
0.0
  0
LINE
  8
ITEM_GSTRG
 10
654.1209714237372
 20
785.7119299395039
 30
0.0
 11
656.1208943341712
 21
785.7119299395037
 31
0.0
  0
POINT
  8
ITEM_HILFE
 10
561.0532963953222
 20
770.7648394660868
 30
0.0
  0
POINT
  8
ITEM_HILFE
 10
561.0532963953222
 20
802.764839466087
 30
0.0
  0
POINT
  8
ITEM_HILFE
 10
561.0532963953222
 20
738.764839466087
 30
0.0
  0
POINT
  8
ITEM_HILFE
 10
679.0215534431609
 20
772.9624213896925
 30
0.0
  0
ENDSEC
  0
EOF
